ISO-10303-21;
HEADER;
FILE_DESCRIPTION (( 'STEP AP203' ),
    '1' );
FILE_NAME ('Q-QZWP-R4-20-780-M.STEP',
    '2020-12-23T01:26:13',
    ( '' ),
    ( '' ),
    'SwSTEP 2.0',
    'SolidWorks 2020',
    '' );
FILE_SCHEMA (( 'CONFIG_CONTROL_DESIGN' ));
ENDSEC;

DATA;
#1 = DIRECTION ( 'NONE',  ( -1.000000000000000000, -0.000000000000000000, -0.000000000000000000 ) ) ;
#2 = AXIS2_PLACEMENT_3D ( 'NONE', #196, #25, #100 ) ;
#3 = CYLINDRICAL_SURFACE ( 'NONE', #81, 10.00000000000000000 ) ;
#4 = VECTOR ( 'NONE', #117, 1000.000000000000000 ) ;
#5 = CARTESIAN_POINT ( 'NONE',  ( 2.999999999999999112, 12.69999999999999929, 0.000000000000000000 ) ) ;
#6 = DIRECTION ( 'NONE',  ( -1.000000000000000000, -0.000000000000000000, -0.000000000000000000 ) ) ;
#7 = DIRECTION ( 'NONE',  ( -1.000000000000000000, -0.000000000000000000, -0.000000000000000000 ) ) ;
#8 = LOCAL_TIME ( 9, 26, 13.00000000000000000, #207 ) ;
#9 = SHAPE_DEFINITION_REPRESENTATION ( #279, #332 ) ;
#10 = APPROVAL_ROLE ( '' ) ;
#11 = APPROVAL_DATE_TIME ( #210, #297 ) ;
#12 = ORIENTED_EDGE ( 'NONE', *, *, #126, .T. ) ;
#13 = PERSON_AND_ORGANIZATION ( #251, #96 ) ;
#14 = CIRCLE ( 'NONE', #240, 10.00000000000000000 ) ;
#15 = COORDINATED_UNIVERSAL_TIME_OFFSET ( 8, 0, .AHEAD. ) ;
#16 = VERTEX_POINT ( 'NONE', #97 ) ;
#17 = COORDINATED_UNIVERSAL_TIME_OFFSET ( 8, 0, .AHEAD. ) ;
#18 = ORIENTED_EDGE ( 'NONE', *, *, #159, .T. ) ;
#19 = VERTEX_POINT ( 'NONE', #333 ) ;
#20 = LINE ( 'NONE', #187, #4 ) ;
#21 = ORIENTED_EDGE ( 'NONE', *, *, #312, .F. ) ;
#22 = DIRECTION ( 'NONE',  ( -0.000000000000000000, 0.000000000000000000, 1.000000000000000000 ) ) ;
#23 = CYLINDRICAL_SURFACE ( 'NONE', #228, 12.69999999999999929 ) ;
#24 = DIRECTION ( 'NONE',  ( 0.000000000000000000, 0.000000000000000000, 1.000000000000000000 ) ) ;
#25 = DIRECTION ( 'NONE',  ( 1.000000000000000000, 0.000000000000000000, 0.000000000000000000 ) ) ;
#26 = CARTESIAN_POINT ( 'NONE',  ( 2.500000000000000888, 0.000000000000000000, 0.000000000000000000 ) ) ;
#27 = ADVANCED_FACE ( 'NONE', ( #141 ), #305, .T. ) ;
#28 = VECTOR ( 'NONE', #294, 1000.000000000000000 ) ;
#29 = DIRECTION ( 'NONE',  ( 0.000000000000000000, 0.000000000000000000, 1.000000000000000000 ) ) ;
#30 = DIRECTION ( 'NONE',  ( 0.000000000000000000, 0.000000000000000000, 1.000000000000000000 ) ) ;
#31 = DIRECTION ( 'NONE',  ( -1.000000000000000000, -0.000000000000000000, -0.000000000000000000 ) ) ;
#32 = DIRECTION ( 'NONE',  ( -1.000000000000000000, -0.000000000000000000, -0.000000000000000000 ) ) ;
#33 = ORIENTED_EDGE ( 'NONE', *, *, #287, .F. ) ;
#34 = APPROVAL_DATE_TIME ( #114, #303 ) ;
#35 = COORDINATED_UNIVERSAL_TIME_OFFSET ( 8, 0, .AHEAD. ) ;
#36 = ORIENTED_EDGE ( 'NONE', *, *, #77, .T. ) ;
#37 = DATE_AND_TIME ( #131, #293 ) ;
#38 = ORIENTED_EDGE ( 'NONE', *, *, #291, .T. ) ;
#39 = CC_DESIGN_APPROVAL ( #297, ( #147 ) ) ;
#40 = PERSON_AND_ORGANIZATION_ROLE ( 'creator' ) ;
#41 = PERSON_AND_ORGANIZATION ( #251, #96 ) ;
#42 = EDGE_CURVE ( 'NONE', #92, #155, #309, .T. ) ;
#43 = VERTEX_POINT ( 'NONE', #282 ) ;
#44 = VECTOR ( 'NONE', #125, 1000.000000000000000 ) ;
#45 = CARTESIAN_POINT ( 'NONE',  ( -1.614212418857619014, 0.000000000000000000, 0.000000000000000000 ) ) ;
#46 = AXIS2_PLACEMENT_3D ( 'NONE', #98, #193, #307 ) ;
#47 = DIRECTION ( 'NONE',  ( -1.000000000000000000, -0.000000000000000000, -0.000000000000000000 ) ) ;
#48 = CARTESIAN_POINT ( 'NONE',  ( -3.000000000000000000, 1.555301434917138433E-15, -12.69999999999999929 ) ) ;
#49 = PLANE ( 'NONE',  #46 ) ;
#50 = AXIS2_PLACEMENT_3D ( 'NONE', #83, #137, #61 ) ;
#51 = AXIS2_PLACEMENT_3D ( 'NONE', #335, #254, #139 ) ;
#52 = CARTESIAN_POINT ( 'NONE',  ( 2.500000000000000888, 1.224646799147353256E-15, -10.00000000000000000 ) ) ;
#53 = CYLINDRICAL_SURFACE ( 'NONE', #192, 10.00000000000000000 ) ;
#54 = DIRECTION ( 'NONE',  ( 0.000000000000000000, 0.000000000000000000, 1.000000000000000000 ) ) ;
#55 =( GEOMETRIC_REPRESENTATION_CONTEXT ( 3 ) GLOBAL_UNCERTAINTY_ASSIGNED_CONTEXT ( ( #236 ) ) GLOBAL_UNIT_ASSIGNED_CONTEXT ( ( #234, #115, #299 ) ) REPRESENTATION_CONTEXT ( 'NONE', 'WORKASPACE' ) );
#56 = CARTESIAN_POINT ( 'NONE',  ( -1.614212418857619014, 0.000000000000000000, 0.000000000000000000 ) ) ;
#57 = DIRECTION ( 'NONE',  ( 0.000000000000000000, 0.000000000000000000, -1.000000000000000000 ) ) ;
#58 = DESIGN_CONTEXT ( 'detailed design', #284, 'design' ) ;
#59 = AXIS2_PLACEMENT_3D ( 'NONE', #260, #82, #57 ) ;
#60 = EDGE_LOOP ( 'NONE', ( #208, #178 ) ) ;
#61 = DIRECTION ( 'NONE',  ( 1.000000000000000000, 0.000000000000000000, 0.000000000000000000 ) ) ;
#62 = EDGE_LOOP ( 'NONE', ( #66, #181 ) ) ;
#63 = COORDINATED_UNIVERSAL_TIME_OFFSET ( 8, 0, .AHEAD. ) ;
#64 = ORIENTED_EDGE ( 'NONE', *, *, #164, .T. ) ;
#65 = ORIENTED_EDGE ( 'NONE', *, *, #224, .T. ) ;
#66 = ORIENTED_EDGE ( 'NONE', *, *, #42, .F. ) ;
#67 = CLOSED_SHELL ( 'NONE', ( #106, #186, #306, #129, #321, #256, #86, #27, #218, #180 ) ) ;
#68 = CARTESIAN_POINT ( 'NONE',  ( -3.000000000000000444, 0.000000000000000000, 0.000000000000000000 ) ) ;
#69 = ORIENTED_EDGE ( 'NONE', *, *, #70, .T. ) ;
#70 = EDGE_CURVE ( 'NONE', #92, #324, #20, .T. ) ;
#71 = FACE_OUTER_BOUND ( 'NONE', #276, .T. ) ;
#72 = FACE_BOUND ( 'NONE', #110, .T. ) ;
#73 = DIRECTION ( 'NONE',  ( -1.000000000000000000, -0.000000000000000000, -0.000000000000000000 ) ) ;
#74 = EDGE_CURVE ( 'NONE', #84, #324, #197, .T. ) ;
#75 = FACE_OUTER_BOUND ( 'NONE', #243, .T. ) ;
#76 = CIRCLE ( 'NONE', #267, 10.00000000000000000 ) ;
#77 = EDGE_CURVE ( 'NONE', #16, #271, #310, .T. ) ;
#78 = DIRECTION ( 'NONE',  ( -1.000000000000000000, -0.000000000000000000, -0.000000000000000000 ) ) ;
#79 = DIRECTION ( 'NONE',  ( 0.000000000000000000, 0.000000000000000000, 1.000000000000000000 ) ) ;
#80 = DIRECTION ( 'NONE',  ( -0.000000000000000000, 0.000000000000000000, 1.000000000000000000 ) ) ;
#81 = AXIS2_PLACEMENT_3D ( 'NONE', #172, #145, #261 ) ;
#82 = DIRECTION ( 'NONE',  ( 1.000000000000000000, 0.000000000000000000, 0.000000000000000000 ) ) ;
#83 = CARTESIAN_POINT ( 'NONE',  ( 0.000000000000000000, 0.000000000000000000, 0.000000000000000000 ) ) ;
#84 = VERTEX_POINT ( 'NONE', #48 ) ;
#85 = CIRCLE ( 'NONE', #104, 10.00000000000000000 ) ;
#86 = ADVANCED_FACE ( 'NONE', ( #72, #169 ), #49, .F. ) ;
#87 = ORIENTED_EDGE ( 'NONE', *, *, #253, .T. ) ;
#88 = CALENDAR_DATE ( 2020, 23, 12 ) ;
#89 = ORIENTED_EDGE ( 'NONE', *, *, #70, .F. ) ;
#90 = APPROVAL_STATUS ( 'not_yet_approved' ) ;
#91 = VERTEX_POINT ( 'NONE', #93 ) ;
#92 = VERTEX_POINT ( 'NONE', #190 ) ;
#93 = CARTESIAN_POINT ( 'NONE',  ( 2.500000000000000888, 0.000000000000000000, 10.00000000000000000 ) ) ;
#94 = CARTESIAN_POINT ( 'NONE',  ( -1.614212418857619014, 0.000000000000000000, 10.00000000000000000 ) ) ;
#95 = VECTOR ( 'NONE', #289, 1000.000000000000000 ) ;
#96 = ORGANIZATION ( 'UNSPECIFIED', 'UNSPECIFIED', '' ) ;
#97 = CARTESIAN_POINT ( 'NONE',  ( -2.500000000000000444, 0.000000000000000000, 10.00000000000000000 ) ) ;
#98 = CARTESIAN_POINT ( 'NONE',  ( -3.000000000000000000, 10.00000000000000000, 0.000000000000000000 ) ) ;
#99 = CARTESIAN_POINT ( 'NONE',  ( -1.614212418857619014, 0.000000000000000000, 0.000000000000000000 ) ) ;
#100 = DIRECTION ( 'NONE',  ( 0.000000000000000000, 0.000000000000000000, -1.000000000000000000 ) ) ;
#101 = FACE_OUTER_BOUND ( 'NONE', #329, .T. ) ;
#102 = DIRECTION ( 'NONE',  ( -1.000000000000000000, -0.000000000000000000, -0.000000000000000000 ) ) ;
#103 = DIRECTION ( 'NONE',  ( 0.000000000000000000, 0.000000000000000000, 1.000000000000000000 ) ) ;
#104 = AXIS2_PLACEMENT_3D ( 'NONE', #295, #288, #233 ) ;
#105 = CALENDAR_DATE ( 2020, 23, 12 ) ;
#106 = ADVANCED_FACE ( 'NONE', ( #71 ), #23, .T. ) ;
#107 = PERSON_AND_ORGANIZATION ( #251, #96 ) ;
#108 = VERTEX_POINT ( 'NONE', #250 ) ;
#109 = PERSON_AND_ORGANIZATION ( #251, #96 ) ;
#110 = EDGE_LOOP ( 'NONE', ( #191, #246 ) ) ;
#111 = AXIS2_PLACEMENT_3D ( 'NONE', #227, #231, #103 ) ;
#112 = APPLICATION_PROTOCOL_DEFINITION ( 'international standard', 'config_control_design', 1994, #182 ) ;
#113 = VERTEX_POINT ( 'NONE', #304 ) ;
#114 = DATE_AND_TIME ( #150, #166 ) ;
#115 =( NAMED_UNIT ( * ) PLANE_ANGLE_UNIT ( ) SI_UNIT ( $, .RADIAN. ) );
#116 = ORIENTED_EDGE ( 'NONE', *, *, #74, .F. ) ;
#117 = DIRECTION ( 'NONE',  ( -1.000000000000000000, -0.000000000000000000, -0.000000000000000000 ) ) ;
#118 = CARTESIAN_POINT ( 'NONE',  ( 2.500000000000000888, 0.000000000000000000, 0.000000000000000000 ) ) ;
#119 = CARTESIAN_POINT ( 'NONE',  ( 3.000000000000000000, 0.000000000000000000, 0.000000000000000000 ) ) ;
#120 = EDGE_CURVE ( 'NONE', #155, #92, #280, .T. ) ;
#121 = DIRECTION ( 'NONE',  ( -1.000000000000000000, -0.000000000000000000, -0.000000000000000000 ) ) ;
#122 = DIRECTION ( 'NONE',  ( 0.000000000000000000, 0.000000000000000000, 1.000000000000000000 ) ) ;
#123 = CARTESIAN_POINT ( 'NONE',  ( -3.000000000000000444, 0.000000000000000000, 10.00000000000000000 ) ) ;
#124 = APPROVAL_PERSON_ORGANIZATION ( #237, #297, #10 ) ;
#125 = DIRECTION ( 'NONE',  ( -1.000000000000000000, -0.000000000000000000, -0.000000000000000000 ) ) ;
#126 = EDGE_CURVE ( 'NONE', #271, #19, #76, .T. ) ;
#127 = CARTESIAN_POINT ( 'NONE',  ( -1.614212418857619014, 0.000000000000000000, 10.00000000000000000 ) ) ;
#128 = FACE_OUTER_BOUND ( 'NONE', #202, .T. ) ;
#129 = ADVANCED_FACE ( 'NONE', ( #167 ), #140, .F. ) ;
#130 = APPROVAL_PERSON_ORGANIZATION ( #176, #259, #158 ) ;
#131 = CALENDAR_DATE ( 2020, 23, 12 ) ;
#132 = CC_DESIGN_DATE_AND_TIME_ASSIGNMENT ( #37, #134, ( #239 ) ) ;
#133 = CARTESIAN_POINT ( 'NONE',  ( -3.000000000000000000, 0.000000000000000000, 12.69999999999999929 ) ) ;
#134 = DATE_TIME_ROLE ( 'creation_date' ) ;
#135 = CIRCLE ( 'NONE', #185, 10.00000000000000000 ) ;
#136 = SECURITY_CLASSIFICATION_LEVEL ( 'unclassified' ) ;
#137 = DIRECTION ( 'NONE',  ( 0.000000000000000000, 0.000000000000000000, 1.000000000000000000 ) ) ;
#138 = DIRECTION ( 'NONE',  ( 0.000000000000000000, 0.000000000000000000, 1.000000000000000000 ) ) ;
#139 = DIRECTION ( 'NONE',  ( 0.000000000000000000, 0.000000000000000000, 1.000000000000000000 ) ) ;
#140 = PLANE ( 'NONE',  #206 ) ;
#141 = FACE_OUTER_BOUND ( 'NONE', #213, .T. ) ;
#142 = ORIENTED_EDGE ( 'NONE', *, *, #287, .T. ) ;
#143 = PLANE ( 'NONE',  #2 ) ;
#144 = CC_DESIGN_PERSON_AND_ORGANIZATION_ASSIGNMENT ( #109, #245, ( #232 ) ) ;
#145 = DIRECTION ( 'NONE',  ( -1.000000000000000000, -0.000000000000000000, -0.000000000000000000 ) ) ;
#146 = LINE ( 'NONE', #127, #95 ) ;
#147 = PRODUCT_DEFINITION_FORMATION_WITH_SPECIFIED_SOURCE ( 'ANY', '', #283, .NOT_KNOWN. ) ;
#148 = CC_DESIGN_PERSON_AND_ORGANIZATION_ASSIGNMENT ( #107, #177, ( #147 ) ) ;
#149 = CARTESIAN_POINT ( 'NONE',  ( -1.614212418857619014, 0.000000000000000000, 0.000000000000000000 ) ) ;
#150 = CALENDAR_DATE ( 2020, 23, 12 ) ;
#151 = FACE_OUTER_BOUND ( 'NONE', #62, .T. ) ;
#152 = APPROVAL_STATUS ( 'not_yet_approved' ) ;
#153 = EDGE_LOOP ( 'NONE', ( #142, #252 ) ) ;
#154 = EDGE_LOOP ( 'NONE', ( #266, #161, #269, #238 ) ) ;
#155 = VERTEX_POINT ( 'NONE', #285 ) ;
#156 = PERSON_AND_ORGANIZATION_ROLE ( 'design_owner' ) ;
#157 = ORIENTED_EDGE ( 'NONE', *, *, #318, .T. ) ;
#158 = APPROVAL_ROLE ( '' ) ;
#159 = EDGE_CURVE ( 'NONE', #300, #91, #257, .T. ) ;
#160 = PERSON_AND_ORGANIZATION ( #251, #96 ) ;
#161 = ORIENTED_EDGE ( 'NONE', *, *, #164, .F. ) ;
#162 = EDGE_CURVE ( 'NONE', #16, #113, #315, .T. ) ;
#163 = ORIENTED_EDGE ( 'NONE', *, *, #291, .F. ) ;
#164 = EDGE_CURVE ( 'NONE', #43, #108, #203, .T. ) ;
#165 = CARTESIAN_POINT ( 'NONE',  ( 3.000000000000000000, 0.000000000000000000, 0.000000000000000000 ) ) ;
#166 = LOCAL_TIME ( 9, 26, 13.00000000000000000, #63 ) ;
#167 = FACE_OUTER_BOUND ( 'NONE', #60, .T. ) ;
#168 = VECTOR ( 'NONE', #216, 1000.000000000000000 ) ;
#169 = FACE_OUTER_BOUND ( 'NONE', #153, .T. ) ;
#170 = DIRECTION ( 'NONE',  ( -1.000000000000000000, 0.000000000000000000, -0.000000000000000000 ) ) ;
#171 = DIRECTION ( 'NONE',  ( -1.000000000000000000, -0.000000000000000000, -0.000000000000000000 ) ) ;
#172 = CARTESIAN_POINT ( 'NONE',  ( -1.614212418857619014, 0.000000000000000000, 0.000000000000000000 ) ) ;
#173 = PLANE ( 'NONE',  #292 ) ;
#174 = LINE ( 'NONE', #290, #44 ) ;
#175 = DIRECTION ( 'NONE',  ( -1.000000000000000000, 0.000000000000000000, -0.000000000000000000 ) ) ;
#176 = PERSON_AND_ORGANIZATION ( #251, #96 ) ;
#177 = PERSON_AND_ORGANIZATION_ROLE ( 'design_supplier' ) ;
#178 = ORIENTED_EDGE ( 'NONE', *, *, #159, .F. ) ;
#179 = APPROVAL_STATUS ( 'not_yet_approved' ) ;
#180 = ADVANCED_FACE ( 'NONE', ( #313 ), #143, .F. ) ;
#181 = ORIENTED_EDGE ( 'NONE', *, *, #120, .F. ) ;
#182 = APPLICATION_CONTEXT ( 'configuration controlled 3d designs of mechanical parts and assemblies' ) ;
#183 = CC_DESIGN_PERSON_AND_ORGANIZATION_ASSIGNMENT ( #13, #40, ( #147 ) ) ;
#184 = ORIENTED_EDGE ( 'NONE', *, *, #312, .T. ) ;
#185 = AXIS2_PLACEMENT_3D ( 'NONE', #225, #102, #122 ) ;
#186 = ADVANCED_FACE ( 'NONE', ( #75 ), #53, .F. ) ;
#187 = CARTESIAN_POINT ( 'NONE',  ( -1.614212418857619014, 0.000000000000000000, 12.69999999999999929 ) ) ;
#188 = CC_DESIGN_PERSON_AND_ORGANIZATION_ASSIGNMENT ( #41, #328, ( #239 ) ) ;
#189 = CC_DESIGN_DATE_AND_TIME_ASSIGNMENT ( #326, #201, ( #232 ) ) ;
#190 = CARTESIAN_POINT ( 'NONE',  ( 3.000000000000000000, 0.000000000000000000, 12.69999999999999929 ) ) ;
#191 = ORIENTED_EDGE ( 'NONE', *, *, #126, .F. ) ;
#192 = AXIS2_PLACEMENT_3D ( 'NONE', #149, #7, #30 ) ;
#193 = DIRECTION ( 'NONE',  ( 1.000000000000000000, 0.000000000000000000, 0.000000000000000000 ) ) ;
#194 = DIRECTION ( 'NONE',  ( -1.000000000000000000, -0.000000000000000000, -0.000000000000000000 ) ) ;
#195 = DIRECTION ( 'NONE',  ( 0.000000000000000000, 0.000000000000000000, 1.000000000000000000 ) ) ;
#196 = CARTESIAN_POINT ( 'NONE',  ( -2.500000000000000444, 10.00000000000000000, 0.000000000000000000 ) ) ;
#197 = CIRCLE ( 'NONE', #51, 12.69999999999999929 ) ;
#198 = CYLINDRICAL_SURFACE ( 'NONE', #314, 10.00000000000000000 ) ;
#199 = CARTESIAN_POINT ( 'NONE',  ( -1.614212418857619014, 1.224646799147353256E-15, -10.00000000000000000 ) ) ;
#200 = FACE_OUTER_BOUND ( 'NONE', #154, .T. ) ;
#201 = DATE_TIME_ROLE ( 'classification_date' ) ;
#202 = EDGE_LOOP ( 'NONE', ( #258, #38, #36, #12 ) ) ;
#203 = CIRCLE ( 'NONE', #248, 10.00000000000000000 ) ;
#204 = CIRCLE ( 'NONE', #111, 12.69999999999999929 ) ;
#205 = ORIENTED_EDGE ( 'NONE', *, *, #253, .F. ) ;
#206 = AXIS2_PLACEMENT_3D ( 'NONE', #311, #170, #22 ) ;
#207 = COORDINATED_UNIVERSAL_TIME_OFFSET ( 8, 0, .AHEAD. ) ;
#208 = ORIENTED_EDGE ( 'NONE', *, *, #211, .F. ) ;
#209 = MANIFOLD_SOLID_BREP ( 'Ðý×', #67 ) ;
#210 = DATE_AND_TIME ( #272, #8 ) ;
#211 = EDGE_CURVE ( 'NONE', #91, #300, #14, .T. ) ;
#212 = ORIENTED_EDGE ( 'NONE', *, *, #230, .T. ) ;
#213 = EDGE_LOOP ( 'NONE', ( #21, #275, #69, #116 ) ) ;
#214 = EDGE_CURVE ( 'NONE', #43, #91, #146, .T. ) ;
#215 = CC_DESIGN_SECURITY_CLASSIFICATION ( #232, ( #147 ) ) ;
#216 = DIRECTION ( 'NONE',  ( -1.000000000000000000, -0.000000000000000000, -0.000000000000000000 ) ) ;
#217 = ORIENTED_EDGE ( 'NONE', *, *, #162, .F. ) ;
#218 = ADVANCED_FACE ( 'NONE', ( #151, #265 ), #173, .F. ) ;
#219 = DIRECTION ( 'NONE',  ( -1.000000000000000000, -0.000000000000000000, -0.000000000000000000 ) ) ;
#220 = CC_DESIGN_APPROVAL ( #303, ( #232 ) ) ;
#221 = ORIENTED_EDGE ( 'NONE', *, *, #77, .F. ) ;
#222 = AXIS2_PLACEMENT_3D ( 'NONE', #331, #47, #281 ) ;
#223 = DIRECTION ( 'NONE',  ( 0.000000000000000000, 0.000000000000000000, 1.000000000000000000 ) ) ;
#224 = EDGE_CURVE ( 'NONE', #19, #271, #135, .T. ) ;
#225 = CARTESIAN_POINT ( 'NONE',  ( -3.000000000000000444, 0.000000000000000000, 0.000000000000000000 ) ) ;
#226 = CIRCLE ( 'NONE', #308, 10.00000000000000000 ) ;
#227 = CARTESIAN_POINT ( 'NONE',  ( -3.000000000000000000, 0.000000000000000000, 0.000000000000000000 ) ) ;
#228 = AXIS2_PLACEMENT_3D ( 'NONE', #45, #73, #24 ) ;
#229 = LINE ( 'NONE', #199, #28 ) ;
#230 = EDGE_CURVE ( 'NONE', #108, #300, #320, .T. ) ;
#231 = DIRECTION ( 'NONE',  ( -1.000000000000000000, -0.000000000000000000, -0.000000000000000000 ) ) ;
#232 = SECURITY_CLASSIFICATION ( '', '', #136 ) ;
#233 = DIRECTION ( 'NONE',  ( 0.000000000000000000, 0.000000000000000000, -1.000000000000000000 ) ) ;
#234 =( LENGTH_UNIT ( ) NAMED_UNIT ( * ) SI_UNIT ( .MILLI., .METRE. ) );
#235 = EDGE_LOOP ( 'NONE', ( #217, #163 ) ) ;
#236 = UNCERTAINTY_MEASURE_WITH_UNIT (LENGTH_MEASURE( 1.000000000000000082E-05 ), #234, 'distance_accuracy_value', 'NONE');
#237 = PERSON_AND_ORGANIZATION ( #251, #96 ) ;
#238 = ORIENTED_EDGE ( 'NONE', *, *, #211, .T. ) ;
#239 = PRODUCT_DEFINITION ( 'UNKNOWN', '', #147, #58 ) ;
#240 = AXIS2_PLACEMENT_3D ( 'NONE', #26, #171, #195 ) ;
#241 = APPLICATION_PROTOCOL_DEFINITION ( 'international standard', 'config_control_design', 1994, #284 ) ;
#242 = CC_DESIGN_APPROVAL ( #259, ( #239 ) ) ;
#243 = EDGE_LOOP ( 'NONE', ( #249, #157, #65, #221 ) ) ;
#244 = AXIS2_PLACEMENT_3D ( 'NONE', #118, #219, #334 ) ;
#245 = PERSON_AND_ORGANIZATION_ROLE ( 'classification_officer' ) ;
#246 = ORIENTED_EDGE ( 'NONE', *, *, #224, .F. ) ;
#247 = ORIENTED_EDGE ( 'NONE', *, *, #214, .F. ) ;
#248 = AXIS2_PLACEMENT_3D ( 'NONE', #264, #78, #54 ) ;
#249 = ORIENTED_EDGE ( 'NONE', *, *, #162, .T. ) ;
#250 = CARTESIAN_POINT ( 'NONE',  ( 2.999999999999999112, 1.224646799147353256E-15, -10.00000000000000000 ) ) ;
#251 = PERSON ( 'UNSPECIFIED', 'UNSPECIFIED', 'UNSPECIFIED', ('UNSPECIFIED'), ('UNSPECIFIED'), ('UNSPECIFIED') ) ;
#252 = ORIENTED_EDGE ( 'NONE', *, *, #74, .T. ) ;
#253 = EDGE_CURVE ( 'NONE', #108, #43, #226, .T. ) ;
#254 = DIRECTION ( 'NONE',  ( -1.000000000000000000, -0.000000000000000000, -0.000000000000000000 ) ) ;
#255 = VECTOR ( 'NONE', #31, 1000.000000000000000 ) ;
#256 = ADVANCED_FACE ( 'NONE', ( #128 ), #3, .F. ) ;
#257 = CIRCLE ( 'NONE', #244, 10.00000000000000000 ) ;
#258 = ORIENTED_EDGE ( 'NONE', *, *, #318, .F. ) ;
#259 = APPROVAL ( #179, 'UNSPECIFIED' ) ;
#260 = CARTESIAN_POINT ( 'NONE',  ( -2.500000000000000444, 0.000000000000000000, 0.000000000000000000 ) ) ;
#261 = DIRECTION ( 'NONE',  ( 0.000000000000000000, 0.000000000000000000, 1.000000000000000000 ) ) ;
#262 = LOCAL_TIME ( 9, 26, 13.00000000000000000, #15 ) ;
#263 = CARTESIAN_POINT ( 'NONE',  ( -1.614212418857619014, 1.224646799147353256E-15, -10.00000000000000000 ) ) ;
#264 = CARTESIAN_POINT ( 'NONE',  ( 2.999999999999999112, 0.000000000000000000, 0.000000000000000000 ) ) ;
#265 = FACE_BOUND ( 'NONE', #327, .T. ) ;
#266 = ORIENTED_EDGE ( 'NONE', *, *, #230, .F. ) ;
#267 = AXIS2_PLACEMENT_3D ( 'NONE', #68, #194, #138 ) ;
#268 = APPROVAL_ROLE ( '' ) ;
#269 = ORIENTED_EDGE ( 'NONE', *, *, #214, .T. ) ;
#270 = DATE_AND_TIME ( #88, #262 ) ;
#271 = VERTEX_POINT ( 'NONE', #123 ) ;
#272 = CALENDAR_DATE ( 2020, 23, 12 ) ;
#273 = AXIS2_PLACEMENT_3D ( 'NONE', #119, #121, #223 ) ;
#274 = APPROVAL_DATE_TIME ( #270, #259 ) ;
#275 = ORIENTED_EDGE ( 'NONE', *, *, #120, .T. ) ;
#276 = EDGE_LOOP ( 'NONE', ( #302, #184, #33, #89 ) ) ;
#277 = DIRECTION ( 'NONE',  ( 0.000000000000000000, 0.000000000000000000, 1.000000000000000000 ) ) ;
#278 = LOCAL_TIME ( 9, 26, 13.00000000000000000, #17 ) ;
#279 = PRODUCT_DEFINITION_SHAPE ( 'NONE', 'NONE',  #239 ) ;
#280 = CIRCLE ( 'NONE', #273, 12.69999999999999929 ) ;
#281 = DIRECTION ( 'NONE',  ( 0.000000000000000000, 0.000000000000000000, 1.000000000000000000 ) ) ;
#282 = CARTESIAN_POINT ( 'NONE',  ( 2.999999999999999112, 0.000000000000000000, 10.00000000000000000 ) ) ;
#283 = PRODUCT ( 'Q-QZWP-R4-20-780-M', 'Q-QZWP-R4-20-780-M', '', ( #322 ) ) ;
#284 = APPLICATION_CONTEXT ( 'configuration controlled 3d designs of mechanical parts and assemblies' ) ;
#285 = CARTESIAN_POINT ( 'NONE',  ( 3.000000000000000000, 1.555301434917138433E-15, -12.69999999999999929 ) ) ;
#286 = AXIS2_PLACEMENT_3D ( 'NONE', #56, #32, #301 ) ;
#287 = EDGE_CURVE ( 'NONE', #324, #84, #204, .T. ) ;
#288 = DIRECTION ( 'NONE',  ( 1.000000000000000000, 0.000000000000000000, 0.000000000000000000 ) ) ;
#289 = DIRECTION ( 'NONE',  ( -1.000000000000000000, -0.000000000000000000, -0.000000000000000000 ) ) ;
#290 = CARTESIAN_POINT ( 'NONE',  ( -1.614212418857619014, 1.555301434917138433E-15, -12.69999999999999929 ) ) ;
#291 = EDGE_CURVE ( 'NONE', #113, #16, #85, .T. ) ;
#292 = AXIS2_PLACEMENT_3D ( 'NONE', #5, #175, #80 ) ;
#293 = LOCAL_TIME ( 9, 26, 13.00000000000000000, #35 ) ;
#294 = DIRECTION ( 'NONE',  ( -1.000000000000000000, -0.000000000000000000, -0.000000000000000000 ) ) ;
#295 = CARTESIAN_POINT ( 'NONE',  ( -2.500000000000000444, 0.000000000000000000, 0.000000000000000000 ) ) ;
#296 = PERSON_AND_ORGANIZATION ( #251, #96 ) ;
#297 = APPROVAL ( #90, 'UNSPECIFIED' ) ;
#298 = PRODUCT_RELATED_PRODUCT_CATEGORY ( 'detail', '', ( #283 ) ) ;
#299 =( NAMED_UNIT ( * ) SI_UNIT ( $, .STERADIAN. ) SOLID_ANGLE_UNIT ( ) );
#300 = VERTEX_POINT ( 'NONE', #52 ) ;
#301 = DIRECTION ( 'NONE',  ( 0.000000000000000000, 0.000000000000000000, 1.000000000000000000 ) ) ;
#302 = ORIENTED_EDGE ( 'NONE', *, *, #42, .T. ) ;
#303 = APPROVAL ( #152, 'UNSPECIFIED' ) ;
#304 = CARTESIAN_POINT ( 'NONE',  ( -2.500000000000000444, 1.224646799147353256E-15, -10.00000000000000000 ) ) ;
#305 = CYLINDRICAL_SURFACE ( 'NONE', #222, 12.69999999999999929 ) ;
#306 = ADVANCED_FACE ( 'NONE', ( #101 ), #198, .F. ) ;
#307 = DIRECTION ( 'NONE',  ( 0.000000000000000000, 0.000000000000000000, -1.000000000000000000 ) ) ;
#308 = AXIS2_PLACEMENT_3D ( 'NONE', #317, #316, #29 ) ;
#309 = CIRCLE ( 'NONE', #330, 12.69999999999999929 ) ;
#310 = LINE ( 'NONE', #94, #168 ) ;
#311 = CARTESIAN_POINT ( 'NONE',  ( 2.500000000000000444, 10.00000000000000000, 0.000000000000000000 ) ) ;
#312 = EDGE_CURVE ( 'NONE', #155, #84, #174, .T. ) ;
#313 = FACE_OUTER_BOUND ( 'NONE', #235, .T. ) ;
#314 = AXIS2_PLACEMENT_3D ( 'NONE', #99, #6, #79 ) ;
#315 = CIRCLE ( 'NONE', #59, 10.00000000000000000 ) ;
#316 = DIRECTION ( 'NONE',  ( -1.000000000000000000, -0.000000000000000000, -0.000000000000000000 ) ) ;
#317 = CARTESIAN_POINT ( 'NONE',  ( 2.999999999999999112, 0.000000000000000000, 0.000000000000000000 ) ) ;
#318 = EDGE_CURVE ( 'NONE', #113, #19, #229, .T. ) ;
#319 = CYLINDRICAL_SURFACE ( 'NONE', #286, 10.00000000000000000 ) ;
#320 = LINE ( 'NONE', #263, #255 ) ;
#321 = ADVANCED_FACE ( 'NONE', ( #200 ), #319, .F. ) ;
#322 = MECHANICAL_CONTEXT ( 'NONE', #182, 'mechanical' ) ;
#323 = CC_DESIGN_PERSON_AND_ORGANIZATION_ASSIGNMENT ( #160, #156, ( #283 ) ) ;
#324 = VERTEX_POINT ( 'NONE', #133 ) ;
#325 = APPROVAL_PERSON_ORGANIZATION ( #296, #303, #268 ) ;
#326 = DATE_AND_TIME ( #105, #278 ) ;
#327 = EDGE_LOOP ( 'NONE', ( #64, #87 ) ) ;
#328 = PERSON_AND_ORGANIZATION_ROLE ( 'creator' ) ;
#329 = EDGE_LOOP ( 'NONE', ( #205, #212, #18, #247 ) ) ;
#330 = AXIS2_PLACEMENT_3D ( 'NONE', #165, #1, #277 ) ;
#331 = CARTESIAN_POINT ( 'NONE',  ( -1.614212418857619014, 0.000000000000000000, 0.000000000000000000 ) ) ;
#332 = ADVANCED_BREP_SHAPE_REPRESENTATION ( 'Q-QZWP-R4-20-780-M', ( #209, #50 ), #55 ) ;
#333 = CARTESIAN_POINT ( 'NONE',  ( -3.000000000000000444, 1.224646799147353256E-15, -10.00000000000000000 ) ) ;
#334 = DIRECTION ( 'NONE',  ( 0.000000000000000000, 0.000000000000000000, 1.000000000000000000 ) ) ;
#335 = CARTESIAN_POINT ( 'NONE',  ( -3.000000000000000000, 0.000000000000000000, 0.000000000000000000 ) ) ;
ENDSEC;
END-ISO-10303-21;
